Skrewdriver

Skrewdriver

Antisocal

IntroVerse
e|-------------------------|
g|-----------77------------|
d|--77777777-77-5555-7777--|
a|--77777777-55-5555-7777--|
e|--55555555----3333-5555--|

Chorus
e|-----------------------------------|
g|-----------------7-----------------|
d|--7-xx-7-xx-7-xx-7----5555-777777--|
a|--7-xx-7-xx-7-xx-5----5555-777777--|
e|--5-xx-5-xx-5-xx------3333-555555--|
   "An-ti  -  Social I Hate The World"

Before The Night Falls

Main riff:
    C                 G                 Bb                F
E|--------------------------------------------------------------------------|
B|--------------------------------------------------------------------------|
G|--------------------------------------------------------------------------|
D|--5--5--5--5--5--5--------------------3--3--3--3--3--3--------------------|
A|--3--3--3--3--3--3--5--5--5--5--5--5--1--1--1--1--1--1--3--3--3--3--3--3--|
E|--------------------3--3--3--3--3--3--------------------1--1--1--1--1--1--|

Chorus:
    C       Bb F    C       Bb F
E|--------------------------------|
B|--------------------------------|
G|--------------------------------|
D|--5--5----3-------5--5----3-----|
A|--3--3----1--3----3--3----1--3--|
E|-------------1---------------1--|

Bridge:
    C               G                Bb              F
E|------------------------------------------------------------------|
B|------------------------------------------------------------------|
G|------------------------------------------------------------------|
D|--5--5--5-5-5-5--------------------3--3--3-3-3-3------------------|
A|--3--3--3-3-3-3---5--5--5-5-5-5----1--1--1-1-1-1---3--3--3-3-3-3--|
E|------------------3--3--3-3-3-3--------------------1--1--1-1-1-1--|
          . . . .         . . . .          . . . .         . . . .

Lead:

E|--7/8--8--8--7/8--8--8--10--8--8--8--8--8--   --7/8--8--8--7/8--8--8--10--8----------------|
B|--7/8--8--8--7/8--8--8--10--8--8--8--8--8--   --7/8--8--8--7/8--8--8--10--8----------------|
G|-------------------------------------------   -------------------------------10--8---------|
D|-------------------------------------------   --------------------------------------10--8--|
A|-------------------------------------------   ---------------------------------------------|
E|-------------------------------------------X3 ---------------------------------------------|

Blood & Honour

Interlude/verse:

    G                       F
E|--------------------------------------------------|
B|--------------------------------------------------|
G|--------------------------------------------------|
D|--------------------------------------------------|
A|--5--5--5--5--5--5--5--5--3--3--3--3--3--3--3--3--|
E|--3--3--3--3--3--3--3--3--1--1--1--1--1--1--1--1--|
       .  .     .  .     .     .  .     .  .     .

    C
E|--------------------------------------------------|
B|--------------------------------------------------|
G|--------------------------------------------------|
D|--2--2--2--2--2--2--2--2--3--2--2--0--0--2--2--0--|
A|--3--3--3--3--3--3--3--3--3--3--3--3--3--3--3--3--|
E|--------------------------------------------------|
       .  .     .  .     .

Chorus:
    G          C
E|---------------------------------|
B|---------------------------------|
G|---------------------------------|
D|-------------5--5--5----5--5--5--|
A|--5----5--5--3--3--3----3--3--3--|
E|--3----3--3----------------------| X3

    G                    D
E|--------------------------------------------|
B|--------------------------------------------|
G|--------------------------------------------|
D|-----------------------7--7--7--7--7--7--7--|
A|--5--5--5--5--5--5--5--5--5--5--5--5--5--5--|
E|--3--3--3--3--3--3--3-----------------------|

Solo:

E|----------------13----12----------------------------------13----12----15----|
B|----15----13----------------------------12----15----13----------------------|
G|----------------------------12----12----------------------------------------|
D|----------------------------------------------------------------------------|
A|----------------------------------------------------------------------------|
E|----------------------------------------------------------------------------|

E|----------------------------13----12----------------------------------13----12----15----|
B|----------12----15----13----------------------------12----15----13----------------------|
G|----12----------------------------------12----12----------------------------------------|
D|----------------------------------------------------------------------------------------|
A|----------------------------------------------------------------------------------------|
E|----------------------------------------------------------------------------------------|

Boots And Braces

e|-------------------------------------------------------------|
b|-------------------------------------------------------------|
g|----------------5-5--5-5-5---7-7-----------------------------|
d|--5-5---5-5-5---5-5--5-5-5---7-7-9-9-7-7-9-9-7-7-9-9-7-7-9-9-|
a|--5-5---5-5-5---3-3--3-3-3---5-5-5-5-5-5-5-5-5-5-5-5-5-5-5-5-|
e|--3-3---3-3-3------------------------------------------------|

then x2

e|-------------------------------------------|
b|-------------------------------------------|
g|----------------------5-5-5-5--------------|
d|--5-5-5-5---3-3-3-3---5-5-5-5---5-5-5-5----|
a|--5-5-5-5---3-3-3-3---3-3-3-3---5-5-5-5----|
e|--3-3-3-3---1-1-1-1-------------3-3-3-3----|

chorus
x4

e|---------------------------------------------|
b|---------------------------------------------|
g|------------------------5-5--x-x-------------|
d|--5-5--x-x---3-3--x-x---5-5--x-x---5-5--x-x--|
a|--5-5--x-x---3-3--x-x---3-3--x-x---5-5--x-x--|
e|--3-3--x-x---1-1--x-x--------------3-3--x-x--|

Europe Awake

e|------------------------------|
g|---------7-xxx7-5-xxx5--------|
d|--5-xxx5-7-xxx7-5-xxx5-5-xxx--|
a|--5-xxx5-5-xxx5-3-xxx3-5-xxx--|
e|--3-xxx3---------------3-xxx--|

Then it changes to this:
e|-------------------------------|
g|---------777777-555555---------|
d|--555555-777777-555555-555555--|
a|--555555-555555-333333-555555--|
e|--333333---------------333333--|
  A Capitalistic ..........

Chorus:
e|----------------------------------------------------|
g|---------77777---------77777---------77777--555555--|
d|--55555--77777--55555--77777--55555--77777--555555--|
a|--55553--55555--55555--55555--55555--55555--333333--|
e|--33333---------33333---------33333-----------------|
  Europe Awake   For.....sake  Europe Awake  before..too late

Free My Land

VerseIntro:

e|--------------------------------|
b|--------------------------------|
g|--------------------5555555555--|
d|--8888888--3333333--5555555555--|
a|--8888888--3333333--3333333333--|
e|--6666666--1111111--------------|

Chrous:
e|-------------------------------|
b|-------------------------------|
g|----------------555555---------|
d|--55555--33333--555555--88888--|
a|--55555--33333--333333--88888--|
e|--33333--11111----------66666--|
"We were the country that had everything..."

e|-----------|
b|-----------|
g|--------5--|
d|--5--3--5--|
a|--5--3--3--|
e|--3--1-----|
Once a nation now were...

Hail The New Dawn

VerseIntro:
e|---------------------------------|
b|---------------------------------|
g|--111111-777777----------111111--|
d|--222222-777777--777777--222222--|
a|--222222-555555--777777--222222--|
e|--000000---------555555--000000--|

Pre-Chorus:
e|--------------------------|
b|--------------------------|
g|-------7--7-5--5----------|
d|--5--5-7--7-5--5-5---555--|
a|--5--5-5--5-3--3-5---555--|
e|--3--3-----------3---333--|
The Street are still....

Chrous:
e|---------------|
b|---------------|
g|--1----7-------|
d|--2----7----7--|
a|--2----5----7--|
e|--0---------5--|
Hail! the  New Dawn!

I Know What I Want

Verse:
   G           Bb         F          C
E|-----------------------------------------------------------|
B|-----------------------------------------------------------|
G|-----------------------------------------------------------|
D|-------------3--3--3---------------5--5--5--5--5--5--5--5--|
A|--5--5--5----1--1--1----3--3--3----3--3--3--3--3--3--3--3--|
E|--3--3--3---------------1--1--1----------------------------|

Chorus:
    G                       Bb
E|--------------------------------------------------|
B|--------------------------------------------------|
G|--------------------------------------------------|
D|--------------------------3--3--3--3--3--3--3--3--|
A|--5--5--5--5--5--5--5--5--1--1--1--1--1--1--1--1--|
E|--3--3--3--3--3--3--3--3--------------------------|

    F                       C
E|--------------------------------------------------|
B|--------------------------------------------------|
G|--------------------------------------------------|
D|--------------------------5--5--5--5--5--5--5--5--|
A|--3--3--3--3--3--3--3--3--3--3--3--3--3--3--3--3--|
E|--1--1--1--1--1--1--1--1--------------------------|

Then this X4
    G                       F
E|--------------------------------------------------|
B|--------------------------------------------------|
G|--------------------------------------------------|
D|--------------------------------------------------|
A|--5--5--5--5--5--5--5--5--3--3--3--3--3--3--3--3--|
E|--3--3--3--3--3--3--3--3--1--1--1--1--1--1--1--1--|

    C                                        Bb
E|--------------------------------------------------|
B|--------------------------------------------------|
G|--------------------------------------------------|
D|--5--5--7--5--5--5--7--5--5--5--7--5--5----3------|
A|--3--3--3--3--3--3--3--3--3--3--3--3--3----1------|
E|--------------------------------------------------|

Solo begins like this:

E|--------------------------------------------------|
B|--------------------------------------------------|
G|--5b7--5b7---5--3-----5b7----5b7--5b7--5p3--3-----|
D|-------------------5---------------------------5--|
A|--------------------------------------------------|
E|--------------------------------------------------|

Mr 9 To 5

G F G F G F C Bb (x2)

Verse 1
     G                              C
It's 8 a.m. and your day has nearly started
    G                             D
You must be at the office dead on nine
G                   C
Hey Mr. 9-to-5 it's just another day
        G                  D            G
And you must have done the same so many times

G F G F G F C Bb (x2)

Verse 2 (same chord progression)
Reach the office, you sit down and have a cup of tea
Read the paper and tut-tut at the news
The enemies of this country are marching on our streets
But you don't care so long as they don't touch you

G F G F G F C Bb (x2)

Chorus:
G        F        C
Hey Mr., Mr. 9-to-5
G                 F                 C
Won't you tell me what you think of life?
G                F                    C
Think of all the things that you have missed
G                   F                   C
Don't you want much more from life than this?

G F G F G F C Bb (x2)

Verse 3 (same chord progression)
Pick your daughter up from school and take her home with you
You wonder why she's looking bored and down
You wonder where it was that you went wrong, when she turns 'round and says Well I hope
never turn out like you

G F G F G F C Bb (x2)

G (End of the G chord)

New Boss

Verse:

|-----------------------------|
|-----------------------------|
|--55----555------------5555--|
|--55----555----5-3-----5555--|
|--33----333----5-3-----3333--|
|---------------3-1-----------|

Chorus:

|---------|
|---------|
|--5------|
|--5---3--|  Repeat this as many times needed
|--3---3--|
|------1--|

|------------------|
|------------------|
|--5555------------|
|--5555-5555-3333--|
|--3333-5555-3333--|
|-------3333-1111--|
"Come on and stand beside us"

Night Trains

intro: rhythm guitar

	E minor				E minor
e|-----------0--------0-----------------0------------|
B|---------0---0------0ring-------------0------------|
G|-------0-------0----------------------0------------|
D|-----2-----------2--------------------2------------|
A|---2----------------------------------2------------|
E|-0-------------------------------3-2--0------------|

Keep strumming this chord, then the lead guitar plays this little
lead, while the rhythm guitar plays these chords and the slight variations:
					________________________________|
					|
					|
    D	     A				D		 A
e|---------------------------7/12hold---2-2-2-3-2-0-2-2--0-0-------------|
B|--------------------------------------3-3-3-3-3-3-3-3--2-2-2-3-2-0-2-2-|
G|-7/9hold--7hold--7/6hold--------------2-2-2-2-2-2-2-2--2-2-2-2-2-2-2-2-|
D|--------------------------------------0-0--------------2-2-2-2-2-2-2-2-|
A|--------------------------------------0-0--------------0-0-------------|
E|--------------------------------------0-0--------------0-0-------------|

Verse riff: E minor, D, A. Don't forget the small variations of the D and
A chord described above! Repeat this during singing.

bridge between verse and chorus: A, E minor (play fast)

chorus: C, G, F, C + variation. Repeat it once (second time without
variation)

   C	G	F	C  variation
e|-0----3-------1-------0-----0------------------|
B|-1----3-------1-------1-----0------------------|
G|-0----0-------2-------0-----0------------------|
D|-2----0-------3-------2-----2------------------|
A|-3----2-------3-------3-----3------------------|
E|-0----3---------------0-----0------------------|

during the chorus, the lead guitar plays these leads:
	first time			second time
    C	     G				C	 G
e|------------------------------------------------------------|
B|------------------------------------------------------------|
G|--95hold--4hold----------------------95hold--4h5p4hold----|
D|------------------------------------------------------------|
A|------------------------------------------------------------|
E|------------------------------------------------------------|

and also this at the end of the chorus:

e|-----15-14-----------------------------|
B|--12-------12hold----------------------|
G|---------------------------------------|
D|---------------------------------------|
A|---------------------------------------|
E|---------------------------------------|

Now repeat verse, bridge and chorus

solo (rhythm guitar plays verse chords: E minor, D, A). This ain't 100%
accurate kids, but close enough.

e|-----15-14-------------------------------------------------------|
B|--12-------12hold----1210-10hold----8h10p8---10-----------------|
G|-------------------------------------------------12-11hold-------|
D|-----------------------------------------------------------------|
A|-----------------------------------------------------------------|
E|-----------------------------------------------------------------|

e|-----------------------------------------------------------------|
B|----------------------------------------------------12hold-------|
G|--12-14-12-11----------------------------------------------------|
D|--------------14hold----11-12-11hold----11h12p11-12--------------|
A|-----------------------------------------------------------------|
E|-----------------------------------------------------------------|

e|--------12hold---10-10hold-----10/14-15-14hold---15-17--15---14--12hold-|
B|--12-12-----------------------------------------------------------------|
G|------------------------------------------------------------------------|
D|------------------------------------------------------------------------|
A|------------------------------------------------------------------------|
E|------------------------------------------------------------------------|

e|-----------12-15-12-----------------------------------------------------|
B|--------12----------12hold----------------------------------------------|
G|-----12-----------------------------12p119hold-----9h11h12-11-9-7hold--|
D|--14--------------------------14-14-------------------------------------|
A|------------------------------------------------------------------------|
E|------------------------------------------------------------------------|

e|----------------------------------------------------------|
B|-------------------------------------------12hold---------|
G|-7-9-11-9-7-----------------------------------------------|
D|------------11hold----11h12p11hold--9---------------------|
A|---------------------------------------10-----------------|
E|----------------------------------------------------------|

e|---------------------15hold---14-15-14hold---15-17hold-15hold-14-12hold-|
B|------------------12----------------------------------------------------|
G|---------------12-------------------------------------------------------|
D|-------9/12-14----------------------------------------------------------|
A|-10-10------------------------------------------------------------------|
E|------------------------------------------------------------------------|

bridge

chorus

verse

bridge

chorus: play 2 times

finish with E minor chord

Old Albion

   A            E            G            D

e|-0--0-------|-0--0-------|-3--3-------|-2--2-------|
B|-2-----2----|-0-----0----|-3-----3----|-3-----3----|
G|-2-------2--|-1-------1--|-0-------0--|-2-------2--|
D|-2----------|-2----------|-0----------|-0----------|
A|-0----------|-2----------|-2----------|------------|
E|------------|-0----------|-3----------|------------|

The above pattern of strumming works very well with this song.

A               E                    G                  D

The scent of an English meadow wafts gently through the bars

A                    E               G              D

The sounds of summer harvesting, can be heard from afar

A                 E         G                  D

The beauty of old Albion, a beauty hard to beat

A                        E              G              D

But the heart has been corrupted by the changing power seat

(Chorus)

A                 E                     G       D

Will we stand and watch them taking our freedom away?     (x2)

Our warriors are slandered and thrown into their jails
And kept from all their loved ones, in dungeons deep and stale
They say that, self defence is no offence until the law starts with their lies
They'll send you down for protecting your own, already guilty in their lying eyes

Our hearts are full of love and pride for England is our home
The hills and dales are in our souls and the forest ours to roam
But now we lie back in our cells and think of times gone by
We think back on our lives and homes and the girls who wait and cry

Our Pride Is Our Loyalty

|-----------------------------------|
|-----------------------------------|
|--------5--777-------------7--555--|
|--5-5---5--777----5-5------7--555--|
|--5-5---3--555----5-5------5--333--|
|--3-3-------------3-3--------------|

|----------------|                                |----------------|
|----------------|                                |----------------|
|----------5555--| Repeat twice, and then play..  |----------7777--|
|--5555-33-5555--|                                |--5555-33-7777--|
|--5555-33-3333--|                                |--5555-33-5555--|
|--3333-11-------|                                |--3333-11-------|
"Well I guess you didn't know.."         "I can tell you, it aint you or me"

|-------------|
|-------------|
|--5555-------|
|--5555-5555--|  Play Twice...
|--3333-5555--|
|-------3333--|
Our pride is our loyalty...

|-----------------|
|--5555------7777-|
|--5555-5555-7777-|
|--3333-5555-5555-|
|-------3333------|
Our pride is our loyalty to our land...

Poland

Intro:

E|--------------------------------------------------|
B|--------------------------------------------------|
G|--------------------------------------------------|
D|--------------------------------------------------|
A|--2--2--2--2--2--2--2--2--2--2--2--0--2--5--2--0--|
E|--0--0--0--0--0--0--0--0--0--0--0--0--0--0--0--0--| X2
    .  .  .  .  .  .  .  .  .  .  .  .  .  .  .  .

Main Riff:

E|-----------------------------------------|
B|-----------------------------------------|
G|-----------------------------------------|
D|-----------------4--2--2--2--2--2--2--2--|
A|--2--2--2--2--2--2--0--0--0--0--0--0--0--|
E|--0--0--0--0--0--------------------------|
       .  .  .  .        .  .  .  .  .  .

Chorus:

E|-----------------------------------------|
B|-----------------------------------------|
G|-----------------------------------------|
D|----4--------2----------------------2----|
A|----2--------0--------2--------5----0----|
E|----------------------0--------3---------|

Prisoner Of Peace

Intro/verse:

E|-----------------------------------------------------------------|
B|-----------------------------------------------------------------|
G|-----------------------------------------------------------------|
D|-----------------2-2-2-2-2-2-2-2-4-4-4-4-4-4-4-4-2-2-2-2-2-2-2-2-|
A|-2-2-2-2-2-2-2-2-0-0-0-0-0-0-0-0-2-2-2-2-2-2-2-2-0-0-0-0-0-0-0-0-|
E|-0-0-0-0-0-0-0-0-------------------------------------------------|
   . . . . . . . . . . . . . . . . . . . . . . . . . . . . . . . .

Chorus:

E|-----------------|
B|-----------------|
G|--4----2---------|
D|--2----0----2----|
A|------------0----|
E|-----------------|

Showdown

Intro:
e|------------------------------------|
g|----------------7-7-----------------|
d|--2-2----5-5----7-7----7--7-7--3----|
a|--2-2----5-5----5-5----7--7-7--3----|
e|--0-0----3-3-----------5--5-5--5----|

The verse is pretty much the same as the intro, listen to the song.

Chorus:
e|---------------------------------|
b|---------------------------------|
g|--------7---------------7--------|
d|--2-----7--7------2-----7--7--3--|
a|--2-----5--7------2-----5--7--3--|
e|--0--------5------0--------5--5--|
......."Our Day"......."out of our way"

Simple Man

intro: rhythm guitar.

      C          G          A minor
e|----0----------3----------0-----0-----------|
B|----1----------0----------1-----1-----------|
G|----0----------0----------2-----2-----------|
D|----2----------0----------2-----2-----------|
A|----3----------2----------0-----0-----------|
E|----0----------3----------0-----0-----------|

This is the lead for the intro. Listen to the record to get the timing
of the bend and release right.

e|-------------------------------------------------------------|
B|-------------------------------------------------------------|
G|---7b(9)hold-r7-------------------5hold-----------9hold------|
D|-----------------10-7hold-----5-7-------------5-7------------|
A|-------------------------------------------------------------|
E|-------------------------------------------------------------|

e|------------------------------------|
B|------------------------------------|
G|---5-7-9-9----7-5h7p5-7/9hold-------|
D|------------------------------------|
A|------------------------------------|
E|------------------------------------|

verse riff: play this 8 times. Strike each chord once.

     A minor    C      G      A minor
e|----0---------0------3-------0-----------|
B|----1---------1------0-------1-----------|
G|----2---------0------0-------2-----------|
D|----2---------2------0-------2-----------|
A|----0---------3------2-------0-----------|
E|----0---------0------3-------0-----------|

chorus: same as verse riff, but now you strum the chords more. Play 4 times.

verse: 4 times.

chorus: 4 times.

Solo: there seem to be 2 guitars in the beginning and towards the end,
but I'll just tab out one. The second guitar just plays these notes in a
higher octave I think. Rhythm guitar continues with verse riff as background.

e|------------------------------------------------------------------|
B|------------------------------------------------------------------|
G|--7b(9)hold-------------------------------------------------------|
D|------------10hold----7hold----5-7hold-----5-7-5-7-5-7-5-7-7hold--|
A|------------------------------------------------------------------|
E|------------------------------------------------------------------|

e|------------------------------------------------|
B|------------------------------------------------|
G|--7-5-7-7b(9)hold-------------------------------|
D|----------------------10hold-----7-10-7hold-----|
A|------------------------------------------------|
E|------------------------------------------------|

e|--------------------------10h12p10h12p10----12hold---|
B|-----------------10-12-13----------------13----------|
G|-------7----9-12-------------------------------------|
D|--7-10---10------------------------------------------|
A|-----------------------------------------------------|
E|-----------------------------------------------------|

chorus: 4 times

verse: 4 times

chorus: repeat till end. There's a solo as well, but I couldn't hear it well
        enough to try and tab it out.

Strikeforce

VerseIntro:
Guitar 1:
e|--------------------|
b|--------------------|
g|--------------------|
d|--9-9-99----2-2-22--|
a|--9-9-99----2-2-22--|
e|--7-7-77----0-0-00--|

Guitar 2:
e|---------------|
b|---------------|
g|---------------|
d|--9---------2--|
a|--9---------2--|
e|--7---------0--|

Chorus
e|-----------------------|
b|-----------------------|
g|-----------------------|
d|--9-9--99---22---7-77--|
a|--9-9--99---22---7-77--|
e|--7-7--77---00---5-55--|
Strike Force White Survival

The second verse is the same as the first with more strumming and a palm mute. That's it!

Suddenly

C          G        D
We live in changing times
     C               G          D
When certain thoughts are now a crime
C         G                 D
Power flows through an evil pen
    C              G           D
And freedom's light is growing dim

Chorus:
A          E             G                 D
One day if suddenly, I'm forced to take my leave
A              E                  G              D
Will you still carry on, with the things that we believe?
A          E              G            D
One day if suddenly, they take my life away
A         E                   G                D        A
Will you still be fighting to win a bright new day?......

The people who've stood against us
They seem to be above the law
With the power to listen into private moments in our lives
And the power to come kick down your door

Chorus X 2

Our strength has come from ideals many years' old
A strength that has survived within our blood
A strength our foe has recognised, and sworn to drag it down
He wants to drag our people through the mud

Chorus

The Road To Valhalla

 E -------------a---------a------------------------
 H ---------m------m------m------------------------
 G ------i-------------i------i--------------------
 D -p---------------------------------------------
 A -----------------------------------------------
 E -----------------------------------------------
etc etc ....

Intro : D A G D G Em A

This is supposed to be on the piano:
Part one
 H--7-----5--3---5------5--7-8---8--7-5---3------------------
Part two
 H--7---3--8-----8-s-7--5--3-----3---h5---3---h5--------------------
I'm not sure if this is correct... But it's not that important

Verse 1:

D          A            G           D
There is a road, and it leads to Valhalla
      G        Em         A(sus)
Where only the chosen are allowed
D          A           G           D
There is a boy, with a dream of Valhalla
  G            Em          A(sus)
A place in the land of the gods

Chorus:

Hm         D                G             F#m
But in the heart, where the fire burns forever
Hm              D       G                 F#m
Where life goes on, for those who fell in battle
Hm           D            G                      F#m
The gods are waiting, the moment he falls in the fight
G                 A                 Hm
And he will rise, when the sun goes down

Verse 2:
Raised high his sword, as he cried out "Valhalla"
His dream had become reality
Tonight he will dine on the road to Valhalla
Chosen to feast with the gods

...
But in the heart, where the fires burn forever
Where life goes on, for the mighty young Viking
The journey has finally come to an end, for the boy
And he has risen as the bravest of them all

The Snow Fell

E                      A                   E
He sat in a room, in a square the color of blood
E                          A                          E
He'd rule the whole world, if there was a way that he could
E                 D            A                      E
He'd sit and he'd stare at the minarets on top of the towers
E              D            A                             E
For he was the beast, as he hatched his new plans to gain power

Chorus:
       G    D     A                       E
As the snow fell, covering the dreams and ideals
        G    D     A                          E
And the snow fell, freezing the blood and the wheels
       G    D      A                         E
And the snow fell, they had to keep warm for survival
       G    D      A                         E
And the snow fell, and defeated the beast's only rivals

They took the old roads, that Napoleon had taken before
They fought as the forces of light against a darkness in a holy war
One day they were looking out in the sunshine on the cornflowers
The next day they were freezing to death in the snow and the ice cold showers

Chorus

Then came the deadly road back on the steppes of their retreat
The cold racked their bodies, but worse was the pain of defeat
And people who had hailed them once now turned and looked away
These people now knew that the beast was on his way

Chorus

Solo:
E|-----------------------------------------------||
B|---------------------------8-------------------||
G|--7/9--7--9-9-9-9-----7/9-----11--9--7-7--9----||
D|------------------9----------------------------||
A|-----------------------------------------------||
e|-----------------------------------------------||

E|--------------------------------------------------||
B|--------------------------------------------------||
G|--7/9--9/7-----------------7/9--9/7---------------||
D|------------7/9--9-9-9---------------7/9-9-9-9----||
A|------------------------7-----------------------7-||
e|--------------------------------------------------||

Chorus

You finally came back to the borders of your Fatherland
Now enemies came, traitors everywhere at hand
Many people had fought and died, knowing that they had to win
And still it sickens my heart to see the picture of the Red flag in Berlin

Chorus

Tomorrow Belongs To Me

Verse:
|-----------------|
|-----------------|
|----------5------|
|--5---3---5---5--|
|--5---3---3---5--|
|--3---1-------3--|

Chorus:
|-----------------|
|-----------------|
|--7--5-----------|
|--7--5--5---3-3--|
|--5--3--5---3-3--|
|--------3---1-5--|

So, I got bored and decided to tab out the piano intro to Saga's version of Tomorrow
to Me. So here's my attempt:

|-----------------------------------------------------|
|--5--3--1--3--------------6--5-----3--5--3--1--------|
|--------------5--3--5--5--------5--------------3--5--|
|-----------------------------------------------------|
|-----------------------------------------------------|
|-----------------------------------------------------|

Tuesdays Gone

ead at beginning:

e|-------------------------------------------------------------------------|
B|-------------------------------------------------------------------------|
G|--6-6-------6hold----6hold-7-9-7p6hold----6-6-6---------------6----------|
D|------9-7-9-------------------------------------9-7-9hold-------9-7hold--|
A|-------------------------------------------------------------------------|
E|-------------------------------------------------------------------------|

e|-------------------------------------------9hold-7---------------------|
B|--------7------------7hold----9--------------------10-10---10p9p7hold--|
G|--6-6-9---9hold----9------------6-7hold--------------------------------|
D|-----------------------------------------------------------------------|
A|-----------------------------------------------------------------------|
E|-----------------------------------------------------------------------|

this is the background for the lead, as well as the verse:
    A5   E5   G#5  D5      A5   E5   D5   D5
e|--------------------------------------------|
B|--------------------------------------------|
G|-----------------7------------------7----7--|
D|--7----2----4----7--------7----2----7----7--|
A|--7----2----4----5--------7----2----5----5--|
E|--5----0----2-------------5----0------------|

chorus:
    A5  G5  D5  D5       A5  E5  D5  D5
e|--------------------------------------------|
B|--------------------------------------------|
G|----------7---7----------------7---7--------|
D|--7---5---7---7--------7---2---7---7--------|
A|--7---5---5---5--------7---2---5---5--------|
E|--5---3----------------5---0----------------|

Voice Of Britan

Here is riff A:

E--------------------------------|
B--------------------------------|
G--55-xxxx-----------------------|
D--55-xxxx-55-xxxx-33-xxxx-55----|
A--33-xxxx-55-xxxx-33-xxxx-55----|
E----------33-xxxx-11-xxxx-33----|

Here is riff B

E----------------------------------|
B----------------------------------|
G--5-55-55-------------------------|
D--5-55-55-5-55-55-3-33-33-5-55-55-|
A--3-33-35-5-55-55-3-33-33-5-55-55-|
E----------3-33-33-1-11-11-3-33-33-|

Here's riff C:

E----------------------------------|
B----------------------------------|
G --5------------------------------|
D---5---3---5----------------------|
A---3---3---5----------------------|
E-------1---3----------------------|

Right, now for the hard bit, the riff order:

Riff A X 2
Riff B X 6
Riff C X 2
Riff B X 6
Riff C X 2
Riff B x 6
Riff C X 2
Riff A X 2
Riff C X 4
Ends on a C chord

Wasted Life

verse riff:

- first 2 times: let chords ring (this is the intro)

- then: singing starts (let chords ring - listen to record to get
                        strumming right)

- next: now you kinda palm mute the chords

    E5   B5   A5   E5
e|---------------------------------|
B|---------------------------------|
G|-------4----2--------------------|
D|--2----4----2----2---------------|
A|--2----2----0----2---------------|
E|--0--------------0---------------|

Chorus: play this twice

    B5   A5   E5   B5
e|---------------------------------|
B|---------------------------------|
G|--4----2---------4---------------|
D|--4----2----2----4---------------|
A|--2----0----2----2---------------|
E|------------0--------------------|

verse riff

chorus riff

riff 1: strike each chord one time slowly, play all strings and let ring.
	Play this twice

    E    ?		A     E5
e|--0----x--------------0--------|
B|--0----4--4--5--4-----2--------|
G|--1----4--4--4--4-----2--------|
D|--2----4--4--4--4-----2-----2--|
A|--2----x--------------0-----2--|
E|--0----x--------------0-----0--|

riff 2: play this twice

    E5		B5	    A5		E5
e|-----3-3------------------------------------------|
B|-----x-x---------4-4------------------------------|
G|-----x-x------4--x-x------2--2-2------------------|
D|--2--2-2------4--4-4------2--2-2------2--2-2------|
A|--2--2-2------2--2-2------0--0-0------2--2-2------|
E|--0--0-0------------------------------0--0-0------|

verse riff

end with E-chord

Wheres It Gonna End

Intro:

     e------------------------|
     b------------------------|
     g---7----1-11-2-22-1-1---|
     d-----5--2-22-2-22-2-2---|
     a--------2-22-1-11-2-2---|
     e--------0-00-0-00-0-0---| (play eight times)

     Verse:

     e--------------------------|
     b--------------------------|
     g---7----1--11-2-22-1-1----|
     d-----5--2--22-2-22-2-2----|
     a--------2--22-1-11-2-2----|
     e--------0--00-0-00-0-0----| (play eight times for each verse)
              -----pm-----------|

    Chorus:

     e----00000000000000000---------------------------------------------|
     b----33333333333333330---------------------------------------------|
     g----22222222222222221---7----1-11-2-22-1-1---7----1-11-2-22-1-1---|
     d----00000000222222222-----5--2-22-2-22-2-2-----5--2-22-2-22-2-2---|
     a--------------------2--------2-22-1-11-2-2--------2-22-1-11-2-2---|
     e--------------------0--------0-00-0-00-0-0--------0-00-0-00-0-0---| (play
 twice for each chorus)

White Power

E------------------------------|
B------------------------------|
G------------75----------75----|
D-5555555555575555555555575----|
A-5555555555553555555555553----|
e-33333333333--3333333333------|

^that riff is continued through most of the song
till the chorus when they play;
E------------------------------|
B------------------------------|
G------------75----------75----|
D-5555555555575555555555575----|
A-5555555555553555555555553----|
e-33333333333--3333333333------|

'before it gets to late' (the last line of the chorus they play this bit);
E-------------|
B-------------|
G-77775555----|
D-77775555----|
A-77775555----|
e-------------|

then at 1:04 secs
they play;

E----------------|
B----------------|
G-75-------------|
D-755555555555---|
A-755555555555---|
e---3333333333---|

then they go back to that old riff;

E------------------------------|
B------------------------------|
G------------75----------75----|
D-5555555555575555555555575----|
A-5555555555553555555555553----|
e-33333333333--3333333333------|

White Rider

Intro:

Gtr 1.
|------------------------------------------------------------------------------------------------|
|------------------------------------------------------------------------------------------------|
|---------------3~---------------------5~-----------------------3~-------------------------------|
|--5~-----------3~--------3~-----------5~----------5~-----------3~--------3~---------------------|
|--5~-----------1~--------3~-----------3~----------5~-----------1~--------3~---------------------|
|--3~---------------------1~-----------------------3~---------------------1~---------------------|

Gtr 2.
|------------------------------------------------------------------------------------------------|
|------------------------------------------------------------------------------------------------|
|------------------------------------------------------------------------------------------------|
|--5~-----------3~---3p0---------------5~----------5~-----------3~---3p0-------------------------|
|--5~------3h5------------h3------3h5--------------5~------3h5------------h3b~-------------------|
|--3~----------------------------------------------3~--------------------------------------------|

Verse:

Gtr 1.
|------------------------------------------------------------------------------------------------|
|------------------------------------------------------------------------------------------------|
|---------------3---------5--------------------------------------3---------5---------------------|
|--5------------3---------5------------5------------5------------3---------5------------5--------|
|--5------------1---------3------------5------------5------------1---------3------------5--------|
|--3-----------------------------------3------------3-----------------------------------3--------|

Gtr 2.
|------------------------------------------------------------------------------------------------|
|------------------------------------------------------------------------------------------------|
|------------------------------------------------------------------------------------------------|
|--5~-----------3~---3p0---------------5~----------5~-----------3~---3p0----------------5~-------|
|--5~------3h5------------h3------3h5--------------5~------3h5------------h3~------3h5-----------|
|--3~----------------------------------------------3~--------------------------------------------|

Chorus:

Gtr 1.
|-------------------------------------------------------------------------------------------------|
|-------------------------------------------------------------------------------------------------|
|--5----------------------5-----------------------5--------------------------------------5--------|
|--5-------------5--------5-------------5---------5------------5-------------3-----------5--------|
|--3-------------5--------3-------------5---------3------------5-------------3-----------3--------|
|----------------3----------------------3----------------------3-------------1--------------------|

Gtr 2.
|-------------------------------------------------------------------------------------------------|
|-------------------------------------------------------------------------------------------------|
|-------------------------------------------------------------------------------------------------|
|--12b~----10p8-----------12b~----10p8-----------12b~----10p8----------------------------10~------|
|----------------10~--------------------10~--------------------10~------10p9p8~----8h10-----------|
|-------------------------------------------------------------------------------------------------|

Gtr 1.
|-------------------------------------------------------------------------------------------------|
|-------------------------------------------------------------------------------------------------|
|--5----------------------5-----------------------3--------------------------5~-------------------|
|--5-------------5--------5-------------5---------3------------3-------------5~-------------------|
|--3-------------5--------3-------------5---------1------------3-------------3~-------------------|
|----------------3----------------------3----------------------1----------------------------------|

Gtr 2.
|-------------------------------------------------------------------------------------------------|
|-------------------------------------------------------------------------------------------------|
|-------------------------------------------------------------------------------------------------|
|--12b~----10p8-----------12b~----10p8------------------------------------------------------------|
|----------------10~--------------------10~-------------------------------------------------------|
|-------------------------------------------------------------------------------------------------|

Solo:

|------------------------------------------------------------------------------------------------|
|------------------------------------------------------------------------------------------------|
|--12----1210~---------------------------12----1210~-------------------------------------------|
|--12----1210~--------10----108~--------12----1210~--------10----108~------------------------|
|----------------------10----108~----------------------------10----108~------------------------|
|-----------------------------------------------------------------------------\\slide\\~---|

Gtr 1.
|------------------------------------------------------------------------------------------------|
|------------------------------------------------------------------------------------------------|
|-----------------5----------------------------5---------3---------------------------5~----------|
|--3--------------5--------3-------------------5---------3-------------3-------------5~----------|
|--3--------------3--------3-------------------3---------1-------------3-------------3~----------|
|--1-----------------------1-------------------------------------------1-------------------------|

Gtr 2.
|------------------------------------------------------------------------------------------------|
|------------------------------------------------------------------------------------------------|
|------------------------------------------------------------------------------------------------|
|--12b~--10p8h10/12b~------12-12--12-12--10p8-----------------8----------------------10~---------|
|---------------------------------------------10~--------8h10---10-10--8~------8h10--------------|
|------------------------------------------------------------------------------------------------|

Napsat komentář

Emailová adresa nebude zveřejněna. Vyžadované informace jsou označeny *